Cari Kunci Lagu Yang Kamu Suka

Custom Search

Kunci Gitar Mungkinkah Stingky



Untuk lebih detainya silahkan pelajari lagu ini dengan menggunakan video tutorial lengkap diatas.

Kunci Gitar Mungkinkah Atingky

Intro : C Em F G 2x
    C                   Em                F                  G
e-----------0-------------------------1------------------------------
b------1-3-----------0-1-3--------1---1---- 0---1-3----------------
g----0--------0----0--------0---2--------0----0-----0--------------
d------------------------------3-------------------------------------
a--3-----------------------------------------------------------------
e----------------0---------------------------3-----------------------

   C                   Em                  F                   G
e-----0---1-3--------7---0-3-----------1----------------------------
b---1---1----------0---0-------------1---1---0---1-3---------------
g-------------0---------------0---2--------0----0-----0-------------
d-------------------------------3------------------------------------
a--3-----------------------------------------------------------------
e----------------0----------------------------3----------------------

Download dan Print Full Tab Mungkinkah Stingky


C                Em
Tetes air mata basahi pipimu
F          D                G
Di saat kita ‘kan berpisah
C                    Em
Terucapkan janji padamu kasihku
F              D            G
Takkan kulupakan dirimu

F    G           C F       G         C
Begitu beratnya kaulepas diriku
F        G            C Em Am   G     F  Em
Sebut namaku jika kaurindukan aku
         Dm    G
Aku akan datang…

Reff :
C                                 F
Mungkinkah kita ‘kan s’lalu bersama
              Dm                C#m      G
Walau terbentang jarak antara kita
C                         F
Biarkan kupeluk erat bayangmu
               Dm                C#m         G
‘Tuk melepaskan semua kerinduanku, oh…

Interlude : C Em F G

C                         Em
Lambaian tanganmu iringi langkahku
F                        G
Terbesit tanya di hatiku
C                   Em
Akankah dirimu ‘kan tetap milikku
F                          G
Saat kembali di pelukanku


                C   G              C  G
Kau kusayang, s’lalu kujaga
                   Am       Dm   G
Takkan kulepas s’lamanya
                CG              C  G
Hilangkanlah keraguanmu
              Am      Dm     G            C
Pada diriku, di saat ‘ku jauh darimu

Interlude : C F Dm C#m G 2x 

Back to : Reff

Share this

Related Posts

Previous
Next Post »