Cari Kunci Lagu Yang Kamu Suka

Custom Search

Kunci Gitar Selimut tetangga - Republik (+Tab)

Kunci Gitar Selimut tetangga - Republik 



Tab Intro
                                            C

E--------------------------------------------------------------
B--1-----1-------1-0-----------------0-----------------------
G------0-------0-----2-0--------0-2--------------------------
D----2-------2------------3-2-3------------------------------
A--3-------3--------------------------------------------------
E--------------------------------------------------------------

Tab Melodi Intro

E--------------------------------------------------------------
B----------5--6-5------8-5-3-----1--------------------------
G--5--4-5---------5-7--------0-2----------------------------
D-------------------------------------------------------------
A-------------------------------------------------------------
E-------------------------------------------------------------
Download Full Tab


Untuk rhytem tinggal strumming/ digenjreng biasa aja, 4 ketuk per chord/ kunci. Kuncinya tinggal lihat kunci intro dibawah okey...!

Jika belum bisa strumming/ genjrengan/ kocokan gitar silahkan pelajari dengan artikel saya DISINI, dan untuk teman2 yang belum bisa baca tablature gitar, biar memudahkan belajar gitarnya, silahkan pelajari artikel ane tentang Tab Gitar DISINI.

Untuk lebih jelas dan detailnya, silahkan lihat video tutorialnya dibawah
Download

Intro : C
          Am C Dm G

Am C
Bersabarlah sayang aku akan pulang
Dm G
Jangan dengarkan gossip murahan tentang aku
Am C
Berjanjilah sayang ‘tuk slalu setia
Dm G
Meski ku tak slalu disampingmu
F G
Tak usah menangis meratapi aku
F G
Tak perlu berfikir ku meninggalkanmu
F G
Mana mungkin selimut tetangga
Em Am
Hangati tubuhku dalam kedinginan
Dm G C G
Malam-malam panjang setiap tidurku selalu kesepian
F G
Mana mungkin selimut tetangga
Em Am
Hangati tubuhku dalam kedinginan
Dm G C B
Malam-malam panjang setiap tidurku slalu kesepian
Am C
Berjanjilah sayang ‘tuk slalu setia
Dm G
Meski ku tak slalu disampingmu
F G
Tak usah menangis meratapi aku
F G
Tak perlu berfikir ku meninggalkanmu
Solo : Am C Dm G
F G
Tak usah menangis meratapi aku
F G
Tak perlu berfikir ku meninggalkanmu
F G
Mana mungkin selimut tetangga
Em Am
Hangati tubuhku dalam kedinginan
Dm G C Gm
Malam-malam panjang setiap tidurku selalu kesepian
F G
Mana mungkin selimut tetangga
Em Am
Hangati tubuhku dalam kedinginan
Dm G C B
Malam-malam panjang setiap tidurku slalu kesepian
Am C G
Bersabarlah sayang aku akan pulang

Kunci Gitar + Tab Lagu-lagu Republik Lainnya 
Part1



Part2


Share this

Related Posts

Previous
Next Post »