Cari Kunci Lagu Yang Kamu Suka

Custom Search

Kunci Gitar Pelangi Dimatamu Jamrud

kunci gitar pelangi dimatamu, ada yang lain, ada pelangi dimatamu, 30 menit, tiga puluh menit


Pelangi Dimatamu Jamrud

Untuk dapat tab lengkapnya, silahkan download full tab dibawah

Intro: A (2x)

Download Full Tab
<Intro>
       A                           A
e ||----------------------------|-----------------------------|
B ||------------3---------------|------------3----------------|
G ||---------2--2---------------|---------2--2----------------|
D ||------2---------------------|------2----------------------|
A ||---0------------------------|---0-------------------------|
E ||------------------------0---|-----------------------------|
       1  .  2  .  3  .  4  .       1  .  2  .  3  .  4  . 

Verse 1:                 
   <Verse>
      A                            Dm
e |---------------0------------|------------0--1--0----------|
B |------------2---------------|---------3----------3--------|
G |---------2------------------|------2----------------------|
D |------2---------------------|---0-------------------------|
A |---0------------------------|-----------------------------|
E |----------------------------|-----------------------------|
      1  .  2  .  3  .  4  .       1  .  2  .  3  .  4  . 
Tiga puluh menit kita di sini
     A                             E
e |---------------0------------|-----------------------------|
B |------------2---------------|------------0-----------0----|
G |---------2------------------|------1--1-----------1-------|
D |------2---------------------|---2--------------2----------|
A |---0------------------------|-----------------------------|
E |----------------------------|---------------2-------------|
      1  .  2  .  3  .  4  .       1  .  2  .  3  .  4  . 
Tanpa suara
     A   A+     D         Dm
Dan aku resah harus menunggu lama
A   E    A
Kata darimu
Verse 2:
A                    Dm
Mungkin butuh kursus merangkai kata
A         E
Untuk bicara
        A  A+    D           Dm
Dan aku benci harus jujur padamu
A        E      A
Tentang semua ini
Chorus:
D                   Dm
Jam dinding pu tertawa
               A             A7
Karna ku hanya diam dan membisu
  D              Dm
Ingin kumaki diriku sendiri
     B                    E
Yang tak berkutik di depanmu
Reff:
         A       C#7
Ada yang lain disenyummu
       D               E
Yang membuat lidahku gugup tak bergerak
      A            C#7
Ada pelangi di pola matamu
   D                  Dm
Dan memaksa diri tuk bilang
            A
Aku sayang padamu
Dm           A
Aku sayang padamu
Instrumental: F C F E
Verse 3:
 A                    Dm
Mungkin sabtu nanti kuungkap semua
A        E
Isi di hati
        A  A+    D        Dm
Dan aku benci harus jujur padamu
A       E       A
Tentang semua ini
Repeat chorus:
Reff:
         A         C#7
Ada yang lain disenyummu
      D                E
Yang membuat lidahku gugup tak bergerak
      A              C#7
Ada pelangi di pola matamu
   D                 E
Seakan memaksa dan terus memaksa
     A
Ada pelangi
Instrumental: A C#7 D Bbm E
Reff:
         A      C#7
Ada yang lain disenyummu
       D               E
Yang membuat lidahku gugup tak bergerak
      A           C#7
Ada pelangi di pola matamu
    D                Dm
Dan memaksa diri tuk bilang
           A
Aku sayang padamu
Dm           A
Aku sayang padamu


Share this

Related Posts

Previous
Next Post »