Cari Kunci Lagu Yang Kamu Suka

Custom Search

Kunci Gitar Benci Untuk Mencinta Naif + Tab Gitar

Untuk lebih detail lagi dalam mempelajari lagu ini bisa melalui video tutorial diatas, atau juga dapat menggunakan Tab Gitar yang saya simpan ditengah lirik, atau mau didownload juga bisa Tab Gitarnya. Bagi temen2 yang belum paham dengan tab gitar silahkan pelajari Cara Baca Tablature Gitar DISINI.

Kunci Gitar Benci Untuk Mencinta
Tab Gitar Benci Untuk Mencinta
Lirik Benci Untuk Mencinta
Download

Intro : D Dm7 D7 G Gm F#m A A7

D                   Dm7
oh.. betapa ku saat ini
D7                   G
ku benci untuk mencinta
Gm      F#m   A
mencintaimu..

D                   Dm7
oh.. betapa ku saat ini
D7                   G
ku cinta untuk membenci
Gm      F#m   A
membencimu..

reff:
D                       F#
aku tak tau apa yang terjadi
Bm             D7
antara aku dan kau
G
yang ku tau pasti
Gm             D     A
ku benci untuk mencintaimu..

Interlude : D bassC# bassC bassB Em bassD#
Em A F#m Bm C G A

Back to : reff 2x

Bm/A    G
yang ku tau pasti
Gm              D    Bm/A
ku benci untuk mencintaimu          2x

coda : D bassC# Bm A G Gm A D
D F# Bm D7 G Gm D A D



Intro : D Dm7 D7 G Gm F#m A A7

D                   Dm7
oh.. betapa ku saat ini
D7                   G
ku benci untuk mencinta
Gm      F#m   A
mencintaimu..

D                   Dm7
oh.. betapa ku saat ini
D7                   G
ku cinta untuk membenci
Gm      F#m   A
membencimu..

reff:
D                       F#
aku tak tau apa yang terjadi
Bm             D7
antara aku dan kau
G
yang ku tau pasti
Gm             D     A
ku benci untuk mencintaimu..

Interlude : D bassC# bassC bassB Em bassD#
Em A F#m Bm C G A

Back to : reff 2x

Bm/A    G
yang ku tau pasti
Gm              D    Bm/A
ku benci untuk mencintaimu          2x

coda : D bassC# Bm A G Gm A D
D F# Bm D7 G Gm D A D



Intro : D Dm7 D7 G Gm F#m A A7

D                   Dm7
oh.. betapa ku saat ini
D7                   G
ku benci untuk mencinta
Gm      F#m   A
mencintaimu..

D                   Dm7
oh.. betapa ku saat ini
D7                   G
ku cinta untuk membenci
Gm      F#m   A
membencimu..

reff:
D                       F#
aku tak tau apa yang terjadi
Bm             D7
antara aku dan kau
G
yang ku tau pasti
Gm             D     A
ku benci untuk mencintaimu..

Interlude : D bassC# bassC bassB Em bassD#
Em A F#m Bm C G A
Tuning:Standard

e|-5-----5-----5-7-8-8h10-7--------------------|
B|---7-----7----------------10-7h8-7-8-8h10-7--|
G|-----7-----6--------------------------------8|
D|---------------------------------------------|
A|---------------------------------------------|
E|---------------------------------------------|

e|-------------------9---12/14---14-13-12-9-10----------------|
B|---7-8-10/12-10-12---10----------------------12-------------|
G|-9---------------------------------------------11-----------|
D|------------------------------------------------------------|
A|------------------------------------------------------------|
E|------------------------------------------------------------|

e|-8------8-7h8------------------------9---12---17-|
B|---10---------10-8---8/10---10-9-8---------------|
G|------9------------9---------------9---12---14---|
D|-------------------------------------------------|
A|-------------------------------------------------|
E|-------------------------------------------------|
Download Full Tab

Back to : reff 2x

Bm/A    G
yang ku tau pasti
Gm              D    Bm/A
ku benci untuk mencintaimu          2x

coda : D bassC# Bm A G Gm A D
D F# Bm D7 G Gm D A D

Kunci Gitar + Tab + Video Tutorial Lagu Naif Lainnya

Share this

Related Posts

Previous
Next Post »