Cari Kunci Lagu Yang Kamu Suka

Custom Search

Kunci Gitar Tulus Pamit (+Tab gitar)

            Kunci Gitar Tulus Pamit
lirik lagu tulus pamit
Download

Ini adalah salah satu lagu tulus yang bikin merinding kalo kita denger pake hati lagu ini (tapi tetep pake telinga ya indranya). Selain kunci gitar tentunya, ane sediain juga tab gitarnya, untuk intronya ane tampilkan dibawah. Dan temen2 juga bisa downoad saja tab gitarnya, biar bisa santai nguliknya.

Tab Intro

Em

[------------------0--------2---------3---------2-------0-----------------0- ]
[---------3-------------------------------------------------------3-----------]
[----0--------0--------0--------0---------0--------0-------0--------0------]
[--2---2----2---2---2----2---2----2----2----2---2---2---2---2----2---2----]
[------------------------------------------------------------------------------]
[------------------------------------------------------------------------------]
Em
[------------------0--------2---------3---------2-------0-----------------0--]
[---------3-------------------------------------------------------3----------- ]
[----0--------0--------0--------0---------0--------0-------0--------0----- -]
[--2---2----2---2---2----2---2----2----2----2---2---2---2---2----2---2---- ]
[------------------------------------------------------------------------------]
[--0------------------------------------------------------------------------- -]
C
[------------------0--------2---------3---------2-------0-----------------0--]
[---------3-------------------------------------------------------3----------- ]
[----0--------0--------0--------0---------0--------0-------0--------0----- -]
[--2---2----2---2---2----2---2----2----2----2---2---2---2---2----2---2---- ]
[--3---------------------------------------------------------------------------]
[---------------------------------------------------------------------------- -]

Download Full Tab Gitar Diatas 

Intro : Em..C..

Em

(uuu..uu..uu..uuu..)
Em                     C
(uuu..uu..uu..uuu..uuu)

Em

Tubuh saling bersandar
Em                                      C
ke arah mata angin berbeda
Am                      Bm                  C
Kau menunggu datangnya malam
               D              G
Saat ku menanti fajar…

Em

Sudah coba berbagai cara
Em                              C
Agar kita tetap bersama
           Am      Bm            C
Yang tersisa dari kisah ini
                    D                 G
Hanya kau takut ku hilang

           Am                            D

Perdebatan apapun menuju kata pisah
Em                B                            G      B
Jangan paksakan genggamanmu..

Em                           Am

Izinkan aku pergi dulu
Am                     G                               D
Yang berubah hanya tak lagi ku milikmu
Em                                 Am
Kau masih bisa melihatku


Am                    G                                   D
Kau harus percaya ku tetap teman baikmu

Em

(uuu..uu..uu..uuu..)
Em                       C
(uuu..uu..uu..uuu..uuu)

Em

Sudah coba berbagai cara
Em                            C
Agar kita tetap bersama
          Am        Bm          C
Yang tersisa dari kisah ini
                     D                 G
Hanya kau takut ku hilang

            Am                           D

Perdebatan apapun menuju kata pisah
Em                   B                        G        B
Jangan paksakan genggamanmu..uuuu

Em                     Am

Uuu..uuu…uhhuuu..
Am                     G                               D              B
Yang berubah hanya tak lagi ku milikmu…
Em                             Am
Uuu..uuu…uuu…uhhuuu..
Am                   G                                    D             B
Kau harus percaya ku tetap teman baikmu…

Em                             Am

Izinkan aku pergi dulu
Am                     G                                   D           B
Yang berubah hanya tak lagi ku milikmu…
Em                                Am
Kau masih bisa melihatku
Am                     G                                D
Yang berubah hanya tak lagi ku milikmu

Kunci Gitar Lagu-lagu Tulus lainnya + Video tutorialnya



Share this

Related Posts

Previous
Next Post »