Cari Kunci Lagu Yang Kamu Suka

Custom Search

Kunci Gitar Gigi Akhirnya

                   Kunci Gitar Gigi Akhirnya

kunci gitar gigi akhirnya, download mp3 gigi akhirnya, tab gitar akhirnya gigi
                      Download tab gitar
intro... F Em Dm G 2x
 e|--0-----0-0-----5-3-----3-3-------0-----0-0-----0---------------3---|
B|------1-------1-------1-------1-------1-------1---3-----3-----3-----|
G|------------2-------0-------0---0---2-------2-------4-----4h5-------|
D|----3-----3-------2-------2-------0-------0-----------5-------------|
A|--------------------------------------------------------------------|
E|--------------------------------------------------3-----------------|

e|--0-----0-0-----5-7-----7-7-------8-----8-8-------3-----3-----3-----|
B|------1-------1-------5-------5-------6-------6-------3-----3-------|
G|------------2-------5-------5---5---5-------5---5---4-----4---------|
D|----3-----3---------------------------------------------------------|
A|------------------7-------7-------5-------5-------------------------|
E|--------------------------------------------------3-----------------|

@kusadari akhirnya...
e|--------0-------0-------0-------0-------1-------0-------------------|
B|------1-------1-------1-------1-------1-------1-------1-3-----3-----|
G|----0-------0-------2-------2-------2-------0-------0-------0-------|
D|----------------------------------3-------2-------0-------0---------|
A|--3-------3-------3-------3-----------------------------------------|
E|--------------------------------------------------------------------|


Download Full Tab unuk lanjutan dari Tab diatas


C Am Dm C G
kusadari akhirnya kerapuhan imanku



E Am F C
telah membawa jiwa dan ragaku


E Am Dm G
ke dalam dunia yang tak tentu arah



C Am Dm C G
kusadari akhirnya Kau tiada duanya


E Am F C
tempat memohon beraneka pinta


E Am Dm G C F C G
tempat berlindung dari segala mara bahaya



C Am Dm
Oh Tuhan, mohon ampun


G C Am Dm
atas dosa dan dosa slama ini



G E Am
aku tak menjalankan perintah-Mu


E Am
tak pedulikan nama-Mu


Dm Em F G
tenggelam melupakan diri-Mu



C Am Dm
Oh Tuhan, mohon ampun


G C Am Dm G
atas dosa dan dosa sempatkanlah


E Am
aku bertobat hidup di jalan-Mu


E Am
tuk penuhi kewajibanku


F Em Dm G
sebelum tutup usia kembali pada-Mu

Am G# G D
hoo… kembali pada-Mu… hooaa…

F Em Dm G
F Em D# Dm G


Kunci Gitar Gigi 11 Januari

Share this

Related Posts

Previous
Next Post »