Cari Kunci Lagu Yang Kamu Suka

Custom Search

Kunci Gitar Tak Pernah Ternilai Last Child

Last Child - tak pernah ternilai





                                  E
E--0----0---0---0----0----0---0---0---0---0-------------------
B---0------------------------------------------------------------
G---------9--------9---------9-------9--------------------------
D-----9-------9---------9--------9-------9---------------------
A----------------------------------------------------------------
E----------------------------------------------------------------

                                  B

E-----0---0---0----0----0---0---0---0--------------------------
B-----------------------------------------------------------------
G---8-------8--------8---------8---------------------------------
D-------9-------9---------9--------9-----------------------------
A-----------------------------------------------------------------
E-----------------------------------------------------------------

                                C#m
E-----0---0---0----0----0---0---0---0--------------------------
B-----------------------------------------------------------------
G---6-------6--------6---------6---------------------------------
D-------6-------6---------6--------6-----------------------------
A-----------------------------------------------------------------
E-----------------------------------------------------------------

                                   A
E-----0---0---0----0---------------------------------------------
B-----------------------------------------------------------------
G---2-------2----------------------------------------------------
D-------2-------2------------------------------------------------
A-----------------------------------------------------------------
E-----------------------------------------------------------------

                           B
E-----0---0---0----0---------------------------------------------
B-----------------------------------------------------------------
G---4-------4----------------------------------------------------
D-------4-------4------------------------------------------------
A-----------------------------------------------------------------
E-----------------------------------------------------------------



Pelajari dengan menggunakan videonya,!

Intro Em B C# A

E               B
Kau, menyiksaku disini
 F#                                             A                        
Dalam rasa bersalah yang kini Membunuhku secara perlahan
E                   B                        F#
Kau, slalu menghindar dari Aku yang selalu mencoba
                              A                    
Ungkapkan semua Lewat tatap mata ini
F#                                 A
Ternyata maafmu tak pernah pantas untukku
                 F#                                A
Kau, anggap aku tak ada Dan kau tak pernah mengenal diriku

Reff
A                         E
Setidaknya diriku pernah berjuang
      F#                  E
Meski tak pernah ternilai dimatamu
A                              
Setidaknya ku pernah menanti
 E                    F#
Terkapar melawan sepi hatiku
          A                       Em
Dan tak pernah bisa berhenti mencintaimu


E                 B
Kau menghukum hati ini
        F#
Hati yang dulu
                        A
Kau yakini takkan pernah kecewakanmu
E                B
Kau memutuskan tuk pergi
                  F#
Belum ku sempat memohon dan mengemis
A
Agar kau tetap disini
F#
Ternyata sedalam itu
      A                           F#
Kau benci diriku Kau anggapku tak terlihat
A                       E
Meski ku tepat di depan matamu

Kembali Ke Reff

ohhh

Intro E C# E F# A
A                                  
Setidaknya diriku pernah berjuang
E
Meski tak penah ternilai dimatamu

A                           E
Setidaknya diriku pernah berjuang
        F#                    E
Meski tak pernah ternilai dimatamu
A                              
Setidaknya ku pernah menanti
 E                     F#
Terkapar melawan sepi hatiku
            A                     Em
Dan tak pernah bisa berhenti mencintaimu


Kunci Gitar + Tab Gitar Lagu-lagu Last Child Lainnya

Share this

Related Posts

Previous
Next Post »