Cari Kunci Lagu Yang Kamu Suka

Custom Search

Kunci Gitar ST12 Putri Iklan

Kunci Gitar ST12 Putri Iklan


Saat ngulik lagu ini ane teringet lagunya andra yang judulnya "lagi dan lagi" kalo yang tahu lagu andra yang itu pasti kepikiran juga kali ya. Ya,,,,memang variasi lagu ini memang punya gaya yang mirip, dan dengan kord yang saya pula. Bagi yang pengen mempelajari lagu ST12 yang satu ini silahkan tonton saja video tutorialnya diatas. Dijamin clear semuanya, alias jelas 'n detail dari awal sampai akhir. dari ritem sampai dengan melodinya guys.


Intro : A F#m D E A
                                      A
E|--------------------------------------------------------|
B|--------------------------------------------------------|
G|--------------------------------------------------------|
D|----7--6767---7-7\9767-------------------------------|
A|-00--0------00-0--------------------------------------|
D|--------------------------------------------------------|
                                       F#m
E|--------------------------------------------------------|
B|--------------------------------------------------------|
G|--------------------------------------------------------|
D|----7--6767---7-7\9767-------------------------------|
A|-99--9------99-9--------------------------------------|
D|--------------------------------------------------------|
                                        D
E|--------------------------------------------------------|
B|--------------------------------------------------------|
G|--------------------------------------------------------|
D|----7--6767---7-7\9767-------------------------------|
A|-55--5------55-5--------------------------------------|
D|--------------------------------------------------------|
                                         E
E|--------------------------------------------------------|
B|--------------------------------------------------------|
G|--------------------------------------------------------|
D|----7--6767---7-7\9767-------------------------------|
A|-77--7------77-7--------------------------------------|
D|--------------------------------------------------------|

Download Full Tab Diatas


A F#m
Aku Yang Terlelap Sendiri
D E
Terlelap Sampai Tak Sadar Diri
A F#m
Ku Lihat Sang Pujaan Hati
D E
Datang Melangkah Trus Menghampiri
[Bridge]
C#m F#m
Namun Sungguh Sayang Itu Hanyalah Sebuah Mimpi
Bm
Terbangunkan Pagi
D E
Bersama Mata Hari


Reff:
D E
Aku Bergetar Disentuh Dia
C#m F#m
Mataku Terbang Sampai Kelangit
Bm E
Tubuhnya Pun Indah Kupandangi
A A# A
Putih Mulus Dan Seksi
D E
Tak Jauh Seperti Sang Bidadari
C#m F#m
Kan Ku Peluk Dia Sampai Mati
Bm E
Rambutnya Pun Indah Bagai Putri
A
Mirip Iklan Di Tv
Interlude : D E C#m F#m Bm E A 2x
Jika ada sedikit2 yang kurang jelas ane mohon maaf atas kekurangannya deh....atau boleh juga tanya langsung melalui kolom komentar dibawah. 

Lihat juga kunci gitar lagu lagu ST12/ Setia Band lainnya
Video Tutorial lagu-lagu keren Indonesia

Share this

Related Posts

Previous
Next Post »