Cari Kunci Lagu Yang Kamu Suka

Custom Search

Kunci Gitar Semua Tentang Kita Peterpan (Noah) + Tab Gitar


 Download Tab Gitar Semua Tentang Kita


CHORD DAN TAB GITAR PETERPAN SEMUA TENTANG KITA

Intro: C G Am Em F C Am G (2x)

 C                         G                       
|-------------------------|-------------------------|
|-------------------------|-------------------------|
|-------------------------|-------------------------|
|-----2-----2/3--2-----0--|--------0-------0-----2--|
|--3-----3----------3-----|-----2-----2/3-----3-----|
|-------------------------|--3----------------------|

 Am7                     Em
|-----------------------|-----------------------|
|-----------1-----------|-----------0-----------|
|--------------0-----0--|--------0-----0-----0--|
|-----2-----------2-----|-----2-----------2-----|
|--0-----0--------------|-----------------------|
|-----------------------|--0--------------------|

 F                       C                        
|-----------------------|-------------------------|
|-----------1-----------|--------1----------------|
|-----0--------0-----0--|----------------0--------|
|--3-----3--------3-----|-----2-----0/2--------0--|
|-----------------------|--3----------------3-----|
|-----------------------|-------------------------|





Sorry Tabnya bersambung, untuk dapat full tab silahkan download aje

C G Am Em
Waktu terasa semakin berlalu
F C Am G
Tinggalkan cerita tentang kita
C G Am Em
Akan tiada lagi kini tawamu
F C Am G
Tuk hapuskan semua sepi di hati

Reff :
C Bm Am Em
Ada cerita tentang aku dan dia
F C Am G
Dan kita bersama saat dulu kala
C Bm Am Em
Ada cerita tentang masa yang indah
F C Am G
Saat kita berduka saat kita tertawa

Int : C G Am Em F C Am G (2x)
C G Am Em
Teringat disaat kita tertawa bersama
F C Am G
Ceritakan semua tentang kita

Back To Reff

Coda : C G Am Em F C Am G

Kunci Gitar Lagu-lagu Petepan (Noah)
Video Tutorial Lagu-lagu Peterpan (Noah) 

Share this

Related Posts

Previous
Next Post »