Cari Kunci Lagu Yang Kamu Suka

Custom Search

Kunci Gitar Putuskan Saja Pacarmu (PUSPA) ST12

Kunci Gitar Putuskan Saja Pacarmu (PUSPA) ST12

Download
Video diatas adalah tutorial melodi gitar lagu PUSPA, putar untuk mempelajari melodinya

C                  Em
Kau gadisku yang cantik
F                 C
Coba lihat aku disini
Dm           G                  C
Di sini ada aku yang sayang padamu

C               Em
Kau gadisku yang manis
F                    C
Coba dekat aku disini
Dm                G          C
Di sini ada aku yang cinta padamu

F               G
Walau ku tahu bahwa dirimu
E               Am
Suda ada yang punya
D                         G
Namun aku tunggu sampai kau mau

Reff :

C                     F
Jangan jangn kau menolak cintaku
G                         C
Jangan jangan jangn ragukan hatiku
Am              Dm
Ku kan selalu jangn menunggu
F                G
Untuk jadi pacarmu

C                       F
Jangan jangan kau tak terima cintaku
G                C         (C        C/B)
Jangan jangan tak hiraukan pacarmu
Am               Dm
Putuskanlah saja pacarmu
F                       G
Lalu bilang I love you padaku

Coda : C   F   G   C   Am   Dm   F   G
Tab melodi tengah
 e|------------------------------------------------------|
b|-----------------8-8---6p5-6--8-6-5---------8-6-5-5---|
g|---7-9-7-9---7-9--------------------7---4h7-----------|
d|-----------10-------------------------5---------------|
a|------------------------------------------------------|
e|------------------------------------------------------|

e|----------------------------------------------------------|
b|-12-13-12-13-------------------------13-15-17-17-17b-15---|
g|----------------------------12-14-16----------------------|
d|-------------------12-14-15-------------------------------|
a|-------------12-14----------------------------------------|
e|----------------------------------------------------------|

e|---------------------------15----13----12-------------|
b|-------13-------13--12-13----12----12----12---15-12---|
g|-12-16----12-16----------------12----12----12------12-|
d|------------------------------------------------------|
a|------------------------------------------------------|
e|------------------------------------------------------|

Download full tab diatas
Kunci Gitar Lagu-lagu Keren Indonesia
Video Tutorial Gitar Lagu-lagu Keren Indonesia
Belajar Gitar Dari Dasar Sampai Mahir

Share this

Related Posts

Previous
Next Post »