Cari Kunci Lagu Yang Kamu Suka

Custom Search

Kunci Gitar Peterpan Walau Habis Terang

Kunci Gitar Peterpan Walau Habis Terang
Pelajari cara main gitar "Walau Habis Terang" dengan video tutorial diatas

Intro: D A Bm G (2x)

                                                                  Download
E|--------------------------------------------------------------------------------5--9/10--10--10--9--7--5--|
B|--10--10--10--8--8--8--7--5--5--5--5--7--7--7--5--7--7--7--7-------------------------------------|
G|------------------------------------------------------------------------------------------------------------------|
D|------------------------------------------------------------------------------------------------------------------|
A|------------------------------------------------------------------------------------------------------------------|
E|------------------------------------------------------------------------------------------------------------------|


E|--------------------------------------------------------------------------------------------------|
B|--10--10--10--8--8--8--7--5--5--5--5--7--7--7--5--7--7--7--7--5--5--5--3-----|
G|----------------------------------------------------------------------------------------------4--|
D|--------------------------------------------------------------------------------------------------|
A|--------------------------------------------------------------------------------------------------|
E|--------------------------------------------------------------------------------------------------|


Untuk tab lanjutannya silahkan download aja, link download tab diatas

Bm F#m
Ku terbiasa
G D
Tersenyum tenang
Bm F#m
Walau aa... a a aah…
G D
Hatiku menangis
Bm F#m
Kaulah cerita
G D
Tertulis dengan pasti
Bm F#m G A
Selamanya Dalam Fikiranku

Intro: D A Bm G (2x)
Bm F#m
Peluk Tubuh ku
G D
Untuk Sejenak
Bm F#m
Dan biarkan kita
G D
Memudar dengan pasti
Bm F#m
Biarkan semua
G D
Seperti seharusnya

Bm F#m
Takkan pernah
G D
Menjadi milikku

# G A
Lupakan semua
G A
Tinggalkan ini
G A
Ku ’kan tenang
G A
Dan kau kan pergi

Reff: D A Bm G
Berjalanlah walau habis terang
D A A/C# G
Ambil Cahaya Cinta ku terangi jalan mu
D A Bm G
Di antara beribu lainnya
D
Kau tetap...
A
Kau tetap...
Bm
Kau tetap...
G
Benderang

Intro: D A Bm G (2x)
Back to #,Reff.
D - A -Bm - G D
Ooww… aa ahh



Kunci Gitar Lagu-lagu Peterpan/Noah Lainnya
Kunci Gitar Lagu-lagu Keren Indonesia
Video Tutorial Gitar Lagu-lagu Keren Indonesia
Belajar Gitar Dari Dasar Sampai Mahir

Share this

Related Posts

Previous
Next Post »