Cari Kunci Lagu Yang Kamu Suka

Custom Search

Kunci Gitar Peterpan Tak Bisakah Noah

Kunci Gitar Peterpan Tak Bisakah Noah
Kunci Gitar Peterpan Tak Bisakah Noah

Download

Intro: E Am C D


 E
Hatiku bimbang
  Am
Namun tetap pikirkanmu
       C            D
Selalu, selalu dalam hatiku
 E   Am
Ku melangkah sejauh apapun itu
       C   D
Selalu, kau di dalam hatiku
 E  Am
Oh oh oh…oh oh oh oh oh oh oh
  C          D
Oh oh oh…oh oh oh oh oh oh oh


(#)
 E
Ku berjalan, berjalan
 Am
Memutar waktu
       C   D
Berharap, temukan sisa hatikmu
 E           Am
Mengertilah, kuingin engkau  begitu
       C   D
Mengerti, kau didalam hatiku

Reff:
 G       D
Tak bisakah kau menungguku
 Em       D
Hingga nanti tetap menunggu
 G       D
Tak bisakah kau menuntunku
            Em  D
Menemani dalam hidupku…oh oh



Intro: E Am C D (2x)

|----------------14p14-12---------|
|--12-14p14-12-11-----------------|
|---------------------------------|
|---------------------------------|
|---------------------------------|
|---------------------------------|

|---------------------------------|
|--12-14p14-12-12-11-9p9-7--------|
|---------------------------------|
|---------------------------------|
|---------------------------------|
|---------------------------------|

|----------------14p14-12---------|
|--12-14p14-12-11-----------------|
|---------------------------------|
|---------------------------------|
|---------------------------------|
|---------------------------------|

|---------------------------------|
|--12-14p14-12-12-11-9p9-7--------|
|---------------------------------|
|---------------------------------|
|---------------------------------|
|---------------------------------|
Untuk download full tab, klik link download diatas

Kembali ke : (#)

   E   Am
Dara, kau menjadi hidupku
   C   D
Kemana, kau tahu isi hatiku
     E   Am
Tunggu, sejenak aku disitu
    C   D
Jalanku, jalan menemukanmu


Kembali ke: Reff
Intro : G D Em D (2x)


         E
Oh .. oh...
 A       E
Tak bisakah kau menungguku
 F#m       E
Hingga nanti tetap menunggu
 A       E
Tak bisakah kau menuntunku
F#m    E
Menemani dalam hidupku


 A       E
Tak bisakah kau menungguku
 F#m       E
Hingga nanti tetap menunggu
 A       E
Tak bisakah kau menuntunku
F#m    E
Menemani dalam hidupku




Share this

Related Posts

Previous
Next Post »