Cari Kunci Lagu Yang Kamu Suka

Custom Search

Kunci Gitar Peterpan Mimpi yang sempurna (Noah)

Kunci Gitar Peterpan Mimpi yang sempurna (Noah)
kunci gitar mimpi yang sempurna peterpan

                                                                           Download
Intro : E C G D
 (with Distortion)
E----------------------------------------------------------------|
B----------------------------------------------------------------|
G----------------------------------------------------------------|
D----------------------------------------------------------------|
A--5555-7777-9999-5---7-9-10---9-10----9-10—12/10\12/10----------|
E----------------------------8------10------------------10-------|


E----------------------------------------------------------------| 

B----------------------------------------------------------------|
G----------------------------------------------------------------|
D------------------------------------------101010-9--------------|
A--7-9-10---9-10----9-10—12--5555-7777-999-----------------------|
E---------8------10----------------------------------------------|




Download lanjutan Tab diatas 
E C G
Mungkinkah bila ku bertanya
D E
Pada bintang-bintang
E C G
Dan bila ku mulai merasa
D E
Bahasa kesunyian

E C G
Sadarkan aku yang berjalan
D E
Dalam kehampaan
E C G
Terdiam terpana terbata
D E
Semua dalam keraguan

E C G D E C
Aku dan semua yang terluka
G D
Karena kita..

Em C G D
Aku kan menghilang dalam pekat malam
Em C G
Lepas ku melayang
Em C G D
Biarlah ku bertanya pada bintang-bintang
Em G
Tentang arti kita
D
Dalam mimpi yang sempurna


Interlude : E C G D
E C G D E C
Aku dan semua yang terluka
G D
Karena kita..

Em C G D
Aku kan menghilang dalam pekat malam
Em C G
Lepas ku melayang
Em C G D
Biarlah ku bertanya pada bintang-bintang
Em G
Tentang arti kita
D
Dalam mimpi yang sempurna



Kunci Gitar Lagu-lagu Peterpan/Noah Lainnya

Share this

Related Posts

Previous
Next Post »