Cari Kunci Lagu Yang Kamu Suka

Custom Search

Kunci Gitar Menghapus Jejakmu Peterpan Noah

Chord Gitar Menghapus Jejakmu Peterpan Noah

Untuk lebih jelas secara detail silahkan pelajari memalui video tutorial lagu Menghapus Jejakmu diatas

Lirik: intro:C D Bm Em 2x
Intro
                                                      
                           C                            D
                                                                     ~~~~~~
E ||------------------------------|----------------------2h=3----2----------|
B ||-----------3--------------3---|-------3-------3------------------3------|
G ||-----------0--------------0---|-------0-------0-------------------------|
D ||------------------------------|-0---------0-----------------------------|
A ||------3----------0---3--------|-----------------------------------------|
E ||------------------------------|-----------------------------------------|

     Bm                                 E

E ||------------------------------|---------------------------------------|
B ||------------------------------|---------------------------------------|
G ||---------4----------------4---|---------------------------------------|
D ||---------4----------------4---|--------------2-----------2/4---4/5----|
A ||---2-----------0---2----------|--------------2------------------------|
E ||------------------------------|--------0----------0---0---------------|

Play It 2X

Download Full Tab Diatas

C D
terus melangkah melupakan mu,
Bm Em
lelah hati perhatikan sikapmu,
C D
jalan pikiran mu buat ku ragu,
Bm Em
tak mungkin ini tetap bertahan.

C D
perlahan mimpi tak biasa menganggu,
Bm Em
kucoba untuk terus menjauh,
C D
perlahan hatiku terbelenggu,
Bm Em
kucoba untuk lanjutkan itu.

C D
engkau bukanlah segalaku,
Bm Em
bukan tempat tuk hentikan langkahku,
C D
usai sudah semua berlalu,
Bm Em
biar hujan menghapus jejakmu.

C D
terus melangkah melupakan mu,
Bm Em
lelah hati perhatikan sikapmu,
C D
jalan pikiran mu buat ku ragu,
Bm Em
tak mungkin ini tetap bertahan.

C D
perlahan mimpi tak biasa menganggu,
Bm Em
kucoba untuk terus menjauh,
C D
perlahan hatiku terbelenggu,
Bm Em
kucoba untuk lanjutkan itu.

C D
engkau bukanlah segalaku,
Bm Em
bukan tempat tuk hentikan langkahku,
C D
usai sudah semua berlalu,
Bm Em
biar hujan menghapus jejakmu.

C D
lepaskan segalanya,
Bm Em
lepaskan segalanya,

C D
engkau bukanlah segalaku,
Bm Em
bukan tempat tuk hentikan langkahku,
C D
usai sudah semua berlalu,
Bm Em
biar hujan menghapus jejakmu.

nanananana
nanananana
nanananana
nanananana
nanananana
nanananana



Kunci Gitar Lagu-lagu Keren Indonesia
Video Tutorial Gitar Lagu-lagu Keren Indonesia
Belajar Gitar Dari Dasar Sampai Mahir
 

Share this

Related Posts

Previous
Next Post »