Cari Kunci Lagu Yang Kamu Suka

Custom Search

Kunci Gitar Langit Tak Mendengar Peterpan Noah

Kunci Gitar Langit Tak Mendengar Peterpan Noah



Putar video diatas untuk belajar gitar lagu "langit tak mendengar" lebih detai lagi




Intro:

B F#m B
B F#m B
B F#m B
B F#m B 

E|-----3--2-----3--2-----3-----3--2-----3--2-----3-----3--2-----3--2-----3-|
B|--3--------3--------3-----1--------1--------1-----0--------0--------0----|
G|-------------------------------------------------------------------------|
D|-------------------------------------------------------------------------|
A|-------------------------------------------------------------------------|
E|-------------------------------------------------------------------------|

E|-----3--2-----3--2-----3-----|
B|--3--------3--------3--------|
G|-----------------------------| Repeat 2x
D|-----------------------------|
A|-----------------------------|
E|-----------------------------|



Download Full Tab diatas



B                  F#m

Jadi hidup telah memilih

E                 B

Menurunkan aku ke bumi


B                 F#m

Hari berganti dan berganti

E                  B

Aku diam tak memahami



F#m C#m B 2x

oo oo ooo



B F#m E B 2x



   B              F#m

Mengapa hidup begitu sepi

 E                B

Apakah hidup seperti ini

   B              F#m

Mengapa ku selalu sendiri

 E                    B

Apakah hidupku tak berarti



F#m                C#m

Coba bertanya pada manusia

        B

Tak ada jawabnya

F#m               C#m

Aku bertanya pada langit tua

           B

Langit tak mendengar




Share this

Related Posts

Previous
Next Post »