Cari Kunci Lagu Yang Kamu Suka

Custom Search

Kunci Gitar Ada Apa Denganmu Peterpan Noah

Kunci Gitar Ada Apa Denganmu Peterpan Noah
kunci gitar ada apa denganmu noah

Download

Intro : D A D A

D A
Sudah maafkan aku segala salahku
D A
Dan bila kau tetap bisu ungkapkan salahmu
G D
Dan aku sifatku, dan aku khilafku
G D A
Dan aku cintaku, dan aku rinduku


Interlude : D A D A


D A
Sudah lupakan semua segala perubah
D A
Dan kita terlupa dan kita terluka
G D
Dan aku sifatku, dan aku khilafku
G D A
Dan aku cintaku, dan aku rinduku


Reff :


G
Ku tanya malam dapatkah kau lihatnya
D
Perbedaan yang terungkapkan
G Bm
Tapi mengapa kau tak berubah
D A
Ada apa denganmu how,.,.how,.,.
G
Hanya malam dapat meleburkan
D
Segala rasa yang tak terungkapkan
G Bm
Tapi mengapa kau tak berubah
D A
Ada apa denganmu


Interlude : D A D A


G D
Dan aku sifatku, dan aku khilafku
G D A
Dan aku cintaku, dan aku rinduku


Balik ke Reff


Interlude : G D G Bm D A

Repeat Chorus

Solo:
e|--9-11---11/13-11--9-11---11/13-11--7-9----9/11--9--7-9----9/11--9--------|
B|------13---------------13---------------11--------------11----------------|
G|--------------------------------------------------------------------------|
D|--------------------------------------------------------------------------|
A|--------------------------------------------------------------------------|
E|--------------------------------------------------------------------------|

e|--9-11----11/13-11--9-11----11/13-11--7-9---9/11--9-8-9-------------------|
B|-------13---------------13----------------11------------9-----------------|
G|--------------------------------------------------------------------------|
D|--------------------------------------------------------------------------|
A|--------------------------------------------------------------------------|
E|--------------------------------------------------------------------------|

Repeat Chorus

Outro:
e|--------------------------------------------------------------------------|
B|--------------------------------------------------------------------------|
G|---------3--5-5-----------3-3--------3------------------------------------|
D|---3-3-5---------3-3-3-5-------3-3-5---5-5--------------------------------|
A|--------------------------------------------------------------------------|
E|--------------------------------------------------------------------------|


e|--------------------------------------------------------------------------|
B|--------------------------------------------------------------------------|
G|---------3--5-5-----------3-3--------3------------3-----------------------|
D|---3-3-5---------3-3-3-5-------3-3-5---5-5--3-3-5---5-3-2-----------------|
A|-----------------------------------------------------------2~-------------|
E|-----------------------------------------------------------3~-------------|


Download Full Tab dan Print Tab Diatas

Balik ke Reff




Kunci Gitar Lagu-lagu Peterpan/Noah Lainnya + Video Tutorial

Share this

Related Posts

Previous
Next Post »