Cari Kunci Lagu Yang Kamu Suka

Custom Search

Teknik Melodi Gitar

Teknik Melodi Gitar


Halo sob,,,! kembali lagi dengan saya, kali ini saya akan lanjutkan pembahasan yang tertunda,kemarin saya posting belajar gitar (Bag4), Nah ini bukan bagian 5 nya ya...! soalnya ini tingkatannya diatas yang kemarin. tapi klo yang sudah cukup mahir silahkan dipraktekan saja langsung.

Catatan : Saya menggunakan Tablatur klik link di samping untuk Cara membaca Tablatur

Pull off

Teknik ini adalah yang paling dasar dalam bermain gitar melodi . Cara mainnya, misalnya sobat petik senar 1 fret ke 3 dengan jari tengah, dengan keadaan jari telunjuk sudah menekan fret ke 2. Jadi setelah dilepas jari tengah maka fret ke 2 akan bunyi tanpa dipetik. Jadi hanya satu kali petik menghasilkan 2 nada.
Cara mainnya, misalnya sobat petik senar 1 fret ke 2 dengan telunjuk, kemudian tekan di fret ke 3 dengan jari tengah (telunjuk jangan dulu dilepas). kemudian buka jari tengah pada fret ke 3 dan biarkan fret ke 2 bunyi tanpa dipetik. Jadi hanya satu kali petik menghasilkan 3 nada.
Lihat Contoh
Cara Pull off

Hammer On

Teknik ini juga paling dasar dari teknik dalam bermain gitar . Hammer On sendiri adalah kebalikan dari teknik pull off . Cara mainnya, misalnya sobat petik senar 1 fret ke 2 dengan telunjuk, kemudian tekan di fret ke 3 dengan jari tengah (telunjuk jangan dulu dilepas). kemudian buka jari tengah pada fret ke 3 dan biarkan fret ke 2 bunyi tanpa dipetik. Jadi hanya satu kali petik menghasilkan 3 nada.

Lihat contoh .
Hammer on

Tapping

Tapping techniqueTeknik ini adalah gabungan antara pull off , hammer on ,ditambah bantuan jari tangan kanan untuk membuat nada . Teknik ini di populerkan oleh Eddie Van Halen pada lagu Eruption . Nada yang dihasilkan begitu cepat dan indah bila kawan memakai teknik ini dengan benar dan tidak keluar dari jalur nada dasarnya .


Lihat contoh .
             T                                                                     
|--------12-----7p-----5p-----4p-----0p-----4h-----5h-----7h-----------|
|------------------------------------------------------------------------------|
|------------------------------------------------------------------------------|
|------------------------------------------------------------------------------|
|------------------------------------------------------------------------------|
|------------------------------------------------------------------------------|

ulangi terus ,setelah kawan hammer on pada senar 1 fret 7 kembali ke awal yaitu tapping pada senar 1 fret 12 dan lakukan sebersih mungkin .

Arpeggio

Teknik ini adalah memetik satu pola chord satu persatu setiap akan pindah nada ,dgn syarat nada yg sebelumnya dipetik harus di mute terlebih dahulu . Wajib satu persatu tidak boleh 2 nada sekaligus . karena bila 2 nada yg keluar itu bukan arpeggio tp chord .

Jadi kita bisa ambil 1 pemahaman ,Arpeggio memetik chord secara satu persatu dan chord memetik senar dalam waktu yg bersamaan . Salah satu gitaris yg memakai teknik ini dalam lagunya adalah Yngwie Malmsteen salah satunya pada lagu Arpeggios From Hell .


Contoh
|----------------------------------8-------8---12---8p-------8------------------------------------------|
|---------------------10-----10-----10------------------10------10-----10------------------------------|
|-----------9-----9-------9-------------------------------------------9-------9-------9------------------|
|-------10---10-------------------------------------------------------------------10------10------------|
|---12--------------------------------------------------------------------------------------------12------|
|-----------------------------------------------------------------------------------------------------------|
kunci A Minor



Natural Harmonic

Teknik ini adalah memetik senar di fret-fret tertentu tp tidak dengan cara menekannya cukup disentuh saja di atas besi fretnya sehingga gitar menghasilkan nada dari suatu senar ,berbunyi *tiiiing* tapi bukan ayu tingting ya, ada nadanya kok . lihat gambar .

Artificial Harmonic Atau Pinch Harmonic

Teknik ini sering dipakai untuk lagu-lagu bergenre Rock atau Metal . Teknik ini hampir sama dengan natural harmonic hanya saja teknik ini sangat unik karena menggunakan jari jempol tangan kanan untuk menyentuh si senar . Jadi setelah kawan memetik senar itu waktunya hampir bersamaan dengan menyentuh senar dengan jempol kanan . Gampang-gampang susah pake teknik ini mah hihihihi .


Lihat Gambar
 

Alternate Picking

Picking adalah petikan tangan kanan kawan pada senar . Terus ? Alternate picking apa ? Alternate Picking adalah teknik picking dengan menggerakan tangan kanan kawan ke arah atas dan ke arah bawah secara konsisten . Alternate Picking juga sering disebut Up-Down Stroke . Contoh
alternate picking
teknik melodi gitar
Picking

Sweep Picking

Sweep Picking atau Sweeping adalah teknik pengembangan dari arpeggio ,hanya berbeda pada teknik pickingnya saja yaitu secara di sapu sekaligus . Banyak sekali lagu yang memakai teknik ini terutama lagu-lagu milik Yngwie Malmsteen . Dalam memakai teknik ini kawan tidak bisa langsung dengan speed cepat karna memang agak sulit ,mengapa ? ingat teknik arpeggio ,ketika akan berpindah pada nada berikutnya si nada sebelumnya harus di-mute terlebih dahulu . mmmm sulit :( saya juga belum khatam teknik ini . Polanya Hampirnya dengan Arpeggio
    *-sapu kearah bawah*
|-----------------------------8---------------|
|-----------------------10-------------------|
|------------------9--------------------------|
|-----------10-------------------------------|
|-----12-------------------------------------|
|---------------------------------------------|

    *-sapu kearah atas*
|-----12---8p----------------------------------|
|----------------10-----------------------------|
|----------------------9-------------------------|
|--------------------------10-------------------|
|--------------------------------12-------------|
|------------------------------------------------|

Economy Picking

Economi Picking ??? ini apa ??? hihiih Economi picking adalah teknik picking yang menggabungkan teknik alternate picking dengan sweep picking . teknik ini sangat efektif dikala bermain three notes per string / 3 nada dalam 1 senar . Rumusnya begini ,bila kawan mainin nada yang makin tinggi pakai picking ini (D-U-D) nah kalo kawan mainnya turun pake picking ini (U-D-U) bingung ??? langsung ke gambar contoh ya .
economy picking



Legato

Legato adalah teknik yang sangat berkaitan dengan teknik hammer on dan pull off . pakai teknik hammer on saat nada naik ,dan pakai teknik pull off saat nada turun .

Pada teknik ini tangan kanan tidak memetik senar sama sekali ,jadi di bebas kerjakan dan bisa dipake buat bergaya hihihihh teknik ini selalu di pakai oleh Steve Vai dan Herman Li .



Steve Vai

Contoh Legato

belajar melodi gitar, rumus melodi

String Skipping

Nah teknik ini yang paling saya suka hehehe . String skipping adalah teknik dimana kawan memaikan suatu rangkaian nada dengan cara melewati atau melompati 1 senar . Teknik ini banyak digunakan oleh pada dewa gitar seperti John Petrucci dan Paul Gilbert . Agak sulit memang menggunakan teknik ini tp ayo teruslah berlatih kawan pasti bisa kawan kuasai nantinya .




Share this

Related Posts

Previous
Next Post »