Cari Kunci Lagu Yang Kamu Suka

Custom Search

Kunci Gitar Ku Tak Bisa Slank


Lagu slank yang satu ini tentu tidak asing lagi dikalangan penikmat musik indonesia, bahkan yang bukan slanker mania pun tentu tahu dengan lagu yang satu ini. Diatas saya berikan video tutorialnya supaya memudahkan teman2 mempelajari lagu ini. Kalo masih kurang jelas silahkan download juga tab gitarnya. 
Intro : C



C Em
Pernah berpikir tuk pergi
F C G
dan terlintas tinggalkan kau sendiri
C Em
Sempat ingin sudahi sampai di sini
F C G
coba lari dari kenyataan tapi




Reff :

Dm F C G
Ku tak bisa ... jauh dari mu

Dm F C G
Ku tak bisa ... jauh dari mu



C Em
Lalu mau apa lagi
F C G
kalo kita sudah gak saling mengerti
C Em
sampai kapan bertahan seperti ini
F C G
dua hati bercampur emosi tapi



Reff :

Dm F C G
Ku tak bisa ... jauh dari mu

Dm F C G
Ku tak bisa ... jauh dari mu



Interlude : Am Em Am Em A# Gm B7
ini melody tengahnya ... (yang keren abiz itu ...)

E-------------------------------------------------------------|
B-------------------------------------------------------------|
G----------12/14-14---14\12---9^-9----------------------------|
D-------10----------------------------------------------------|
A-10h12-------------------------------------------------------|
E-------------------------------------------------------------|


E-------------------------------------------------------------|
B---------------------------------------------------10-11-11--|
G----------12/14-14---14\12--------------------9-12-----------|
D-------10--------------------9^-9--------9-12----------------|
A-10h12-----------------------------10-12---------------------|
E-------------------------------------------------------------|

Untuk kelanjutannya tab melodinya, silahkan download aja tabnya



Am Em
Sabar sabar aku coba sabar
Am Em
Sadar sadar seharusnya kita sadar
F Fm
Kau dan aku tercipta tak boleh berpisah



Reff :

Dm F C G
Dan tak bisa ... jauh dari mu

Dm F C G
Ku tak bisa ... jauh dari mu



Dm F C G
Dan tak bisa ... jauh dari mu

Dm F C G
Ku tak bisa ... jauh dari mu


Kunci gitar slank laninnya saya sediakan juga disini, dan juga video tutorial lagu-lagu hits indonesia lainnya.

Share this

Related Posts

Previous
Next Post »