Cari Kunci Lagu Yang Kamu Suka

Custom Search

Kunci Gitar Bendera Coklat



Download

Download Tab Gitar "Bendera"

Lagu ini diisi dengan 2 gitar (lead guitar dan gitar II) tapi saya buat satu, jujur saya pernah bawakan lagu ini pake gitar satu asik asik aja kok. tapi mungkin pake 2 gitar lebih enak

Intro : A Bm C#m D
Intro:

    A                        D
|----------------------------------------|                           
|----------------------------------------|                        
|---666--------------------6666----777---|------------à diulang 2x
|---777---6h7--diulang-3X--7777----777---|
|---777--------------------7777----555---|
|---555--------------------5555----xxx---|

 Gitar 1
|---------------5~--5------------------5~--|
|---5-----5--7---------7--5-----5--77------|
|------6---------------------6-------------|----à diulang-ulang
|------------------------------------------|
|------------------------------------------|
|------------------------------------------|
 |                           |
 |Gitar 2                    |
 |   A   B     C#      B     |
|-----------------------------|
|-----------------------------|
|-----------------------------|
|-----------------------------|--à 2X
|--77X79-9-X9-1111X11-9-X9----|
|--55X57-7-X7-9-9-X9--7-X7----|
Download Full Tab

A Bm
Biar saja ku tak seindah matahari
D A E
Tapi selalu ku coba tuk menghangatkanmu
A Bm
Biar saja ku tak setegar batu karang
D A E
Tapi selalu ku coba tuk melindungimu
musik : A Bm C#m D
A Bm
Biar saja ku tak seharum bunga mawar
D A E
Tapi selalu ku coba tuk mengharumkanmu
C#m D
Biar saja ku tak seelok langit sore
Bm A E
Tapi selalu ku coba tuk mengindahkanmu
F#m E A D
Ku pertahankan kau demi kehormatan bangsa

F#m E D
Ku pertahankan kau demi tumpah darah
B E
Semua pahlawan-pahlawanku
A E F#m E
* Merah putih teruslah kau berkibar
D C#m Bm E
Di ujung tiang tertinggi di Indonesiaku ini
A E F#m E
Merah putih teruslah kau berkibar
D C#m Bm E
Di ujung tiang tertinggi di indonesiaku ini
F#m E A
Merah putih teruslah kau berkibar
D E D
Ku akan selalu menjagamu
*Kembali ke intro

Share this

Related Posts

Previous
Next Post »