Cari Kunci Lagu Yang Kamu Suka

Custom Search

Kunci Gitar Belajar Gitar Ceria J-Rock

J-Rock Ceria

Untuk lebih detailnya silahkan pelajari dengan menggunakan video tutorial dibawah

                                                                    Download
Intro : Em A D B
        Em A D
        Em A F#m Em A D

D           Em    
Hari ini kudendangkan
A                 D
Lagu yg ingin kunyanyikan
B               Em
Terkenang semua kenangan
         A       D
Yang telah kualami

                 Em
Ingin kubuka lembar baru
A                 D
Untuk meneruskan hidupku
B            Em
Tak mau lagi kesedihan
     A        D
Selimuti diriku

Reff :
 G    A           F#m   B
Semua orang ingin bahagia
       Em     A          D
Menjalani hidup di dunia ini
  G    A        F#m   B
Ingin kubukakan jawaban
     Em                  A
Misteri dan senang yg sejati

D           Em    
Hari ini kudendangkan
A                 D
Lagu yg ingin kunyanyikan
B               Em
Terkenang semua kenangan
         A       D
Yang telah kualami

Interlude : G Gm

  Em   A           F#m     B
* menari dan terus bernyanyi
         Em   A            D
  Mengikuti irama sang mentari
   Em   A            F#m B
  Tertawa dan selalu ceria
       Em       A       D
  Berikan ku arti hidup ini

Interlude : Dm Gm C F
            Dm Gm A# C
            F#m B G#m C#m
            F#m B E
            F#m B G#m C#m
            F#m B E
Swing jazz style
E-----------------------------------------|
B-----------------------------------------|
G----9s10--9--7--9s10--10--10s12--7--7s9--|
D-----------------------------------------|
A-----------------------------------------|
E-----------------------------------------|

E-----------------------------------------------------------------------------------------|
B---13--12--11--10-------------------------------------------------------------10--10s12--|
G--------------------12--10--9h10p9-------------------------------------------------------|
D--------------------------------------12--10--9h10p9-------------9--10--12---------------|
A--------------------------------------------------------12--10--12-----------------------|
E-----------------------------------------------------------------------------------------|

E---------------------------------------------|
B--12--13--15--17--17b1/4--15--13--15--15b17--|
G---------------------------------------------|
D---------------------------------------------|
A---------------------------------------------|
E---------------------------------------------|
Sorry Tabnya baru sepotong, untuk full tabnya silahkan download aja diatas
Download Tab Bass Jrock Ceria


Kembali ke Reff

lihat cara main melodinya di video berikut


 

Share this

Related Posts

Previous
Next Post »